  0
SECTION
  2
HEADER
  9
$ACADVER
  1
AC1015
  9
$ACADMAINTVER
 70
     6
  9
$DWGCODEPAGE
  3
ANSI_1254
  9
$INSBASE
 10
0.0
 20
0.0
 30
0.0
  9
$EXTMIN
 10
0.0
 20
0.0
 30
0.0
  9
$EXTMAX
 10
279.4
 20
215.9
 30
0.0
  9
$LIMMIN
 10
0.0
 20
0.0
  9
$LIMMAX
 10
279.4
 20
215.9
  9
$ORTHOMODE
 70
     0
  9
$REGENMODE
 70
     1
  9
$FILLMODE
 70
     1
  9
$QTEXTMODE
 70
     0
  9
$MIRRTEXT
 70
     1
  9
$LTSCALE
 40
1.0
  9
$ATTMODE
 70
     1
  9
$TEXTSIZE
 40
3.5
  9
$TRACEWID
 40
1.0
  9
$TEXTSTYLE
  7
Standard
  9
$CLAYER
  8
0
  9
$CELTYPE
  6
ByLayer
  9
$CECOLOR
 62
   256
  9
$CELTSCALE
 40
1.0
  9
$DISPSILH
 70
     0
  9
$DIMSCALE
 40
1.0
  9
$DIMASZ
 40
3.5
  9
$DIMEXO
 40
1.0
  9
$DIMDLI
 40
3.75
  9
$DIMRND
 40
0.0
  9
$DIMDLE
 40
0.0
  9
$DIMEXE
 40
1.0
  9
$DIMTP
 40
0.0
  9
$DIMTM
 40
0.0
  9
$DIMTXT
 40
3.5
  9
$DIMCEN
 40
2.5
  9
$DIMTSZ
 40
0.0
  9
$DIMTOL
 70
     0
  9
$DIMLIM
 70
     0
  9
$DIMTIH
 70
     1
  9
$DIMTOH
 70
     1
  9
$DIMSE1
 70
     0
  9
$DIMSE2
 70
     0
  9
$DIMTAD
 70
     1
  9
$DIMZIN
 70
     0
  9
$DIMBLK
  1

  9
$DIMASO
 70
     1
  9
$DIMSHO
 70
     1
  9
$DIMPOST
  1

  9
$DIMAPOST
  1

  9
$DIMALT
 70
     0
  9
$DIMALTD
 70
     3
  9
$DIMALTF
 40
0.0393700787
  9
$DIMLFAC
 40
1.0
  9
$DIMTOFL
 70
     1
  9
$DIMTVP
 40
0.0
  9
$DIMTIX
 70
     0
  9
$DIMSOXD
 70
     0
  9
$DIMSAH
 70
     0
  9
$DIMBLK1
  1

  9
$DIMBLK2
  1

  9
$DIMSTYLE
  2
ISO-25
  9
$DIMCLRD
 70
     0
  9
$DIMCLRE
 70
     0
  9
$DIMCLRT
 70
     0
  9
$DIMTFAC
 40
1.0
  9
$DIMGAP
 40
1.524
  9
$DIMJUST
 70
     0
  9
$DIMSD1
 70
     0
  9
$DIMSD2
 70
     0
  9
$DIMTOLJ
 70
     0
  9
$DIMTZIN
 70
     0
  9
$DIMALTZ
 70
     0
  9
$DIMALTTZ
 70
     0
  9
$DIMUPT
 70
     0
  9
$DIMDEC
 70
     2
  9
$DIMTDEC
 70
     2
  9
$DIMALTU
 70
     2
  9
$DIMALTTD
 70
     3
  9
$DIMTXSTY
  7
Standard
  9
$DIMAUNIT
 70
     0
  9
$DIMADEC
 70
     2
  9
$DIMALTRND
 40
0.0
  9
$DIMAZIN
 70
     0
  9
$DIMDSEP
 70
    44
  9
$DIMATFIT
 70
     3
  9
$DIMFRAC
 70
     0
  9
$DIMLDRBLK
  1

  9
$DIMLUNIT
 70
     2
  9
$DIMLWD
 70
    -2
  9
$DIMLWE
 70
    -2
  9
$DIMTMOVE
 70
     0
  9
$LUNITS
 70
     2
  9
$LUPREC
 70
     2
  9
$SKETCHINC
 40
1.0
  9
$FILLETRAD
 40
10.0
  9
$AUNITS
 70
     0
  9
$AUPREC
 70
     2
  9
$MENU
  1
.
  9
$ELEVATION
 40
0.0
  9
$PELEVATION
 40
0.0
  9
$THICKNESS
 40
0.0
  9
$LIMCHECK
 70
     0
  9
$CHAMFERA
 40
0.0
  9
$CHAMFERB
 40
0.0
  9
$CHAMFERC
 40
0.0
  9
$CHAMFERD
 40
0.0
  9
$SKPOLY
 70
     0
  9
$TDCREATE
 40
2458985.698666204
  9
$TDUCREATE
 40
2458985.573666204
  9
$TDUPDATE
 40
2458985.698666516
  9
$TDUUPDATE
 40
2458985.573666516
  9
$TDINDWG
 40
0.0000000116
  9
$TDUSRTIMER
 40
0.0000000116
  9
$USRTIMER
 70
     1
  9
$ANGBASE
 50
0.0
  9
$ANGDIR
 70
     0
  9
$PDMODE
 70
     0
  9
$PDSIZE
 40
-1.0
  9
$PLINEWID
 40
0.0
  9
$SPLFRAME
 70
     0
  9
$SPLINETYPE
 70
     6
  9
$SPLINESEGS
 70
     8
  9
$HANDSEED
  5
EB
  9
$SURFTAB1
 70
     6
  9
$SURFTAB2
 70
     6
  9
$SURFTYPE
 70
     6
  9
$SURFU
 70
     6
  9
$SURFV
 70
     6
  9
$UCSBASE
  2

  9
$UCSNAME
  2

  9
$UCSORG
 10
0.0
 20
0.0
 30
0.0
  9
$UCSXDIR
 10
1.0
 20
0.0
 30
0.0
  9
$UCSYDIR
 10
0.0
 20
1.0
 30
0.0
  9
$UCSORTHOREF
  2

  9
$UCSORTHOVIEW
 70
     0
  9
$UCSORGTOP
 10
0.0
 20
0.0
 30
0.0
  9
$UCSORGBOTTOM
 10
0.0
 20
0.0
 30
0.0
  9
$UCSORGLEFT
 10
0.0
 20
0.0
 30
0.0
  9
$UCSORGRIGHT
 10
0.0
 20
0.0
 30
0.0
  9
$UCSORGFRONT
 10
0.0
 20
0.0
 30
0.0
  9
$UCSORGBACK
 10
0.0
 20
0.0
 30
0.0
  9
$PUCSBASE
  2

  9
$PUCSNAME
  2

  9
$PUCSORG
 10
0.0
 20
0.0
 30
0.0
  9
$PUCSXDIR
 10
1.0
 20
0.0
 30
0.0
  9
$PUCSYDIR
 10
0.0
 20
1.0
 30
0.0
  9
$PUCSORTHOREF
  2

  9
$PUCSORTHOVIEW
 70
     0
  9
$PUCSORGTOP
 10
0.0
 20
0.0
 30
0.0
  9
$PUCSORGBOTTOM
 10
0.0
 20
0.0
 30
0.0
  9
$PUCSORGLEFT
 10
0.0
 20
0.0
 30
0.0
  9
$PUCSORGRIGHT
 10
0.0
 20
0.0
 30
0.0
  9
$PUCSORGFRONT
 10
0.0
 20
0.0
 30
0.0
  9
$PUCSORGBACK
 10
0.0
 20
0.0
 30
0.0
  9
$USERI1
 70
     0
  9
$USERI2
 70
     0
  9
$USERI3
 70
     0
  9
$USERI4
 70
     0
  9
$USERI5
 70
     0
  9
$USERR1
 40
0.0
  9
$USERR2
 40
0.0
  9
$USERR3
 40
0.0
  9
$USERR4
 40
0.0
  9
$USERR5
 40
0.0
  9
$WORLDVIEW
 70
     1
  9
$SHADEDGE
 70
     3
  9
$SHADEDIF
 70
    70
  9
$TILEMODE
 70
     1
  9
$MAXACTVP
 70
    64
  9
$PINSBASE
 10
0.0
 20
0.0
 30
0.0
  9
$PLIMCHECK
 70
     0
  9
$PEXTMIN
 10
1.0000000000E+20
 20
1.0000000000E+20
 30
1.0000000000E+20
  9
$PEXTMAX
 10
-1.0000000000E+20
 20
-1.0000000000E+20
 30
-1.0000000000E+20
  9
$PLIMMIN
 10
0.0
 20
0.0
  9
$PLIMMAX
 10
420.0
 20
297.0
  9
$UNITMODE
 70
     0
  9
$VISRETAIN
 70
     1
  9
$PLINEGEN
 70
     0
  9
$PSLTSCALE
 70
     1
  9
$TREEDEPTH
 70
  3020
  9
$CMLSTYLE
  2
Standard
  9
$CMLJUST
 70
     0
  9
$CMLSCALE
 40
20.0
  9
$PROXYGRAPHICS
 70
     1
  9
$MEASUREMENT
 70
     1
  9
$CELWEIGHT
370
    -1
  9
$ENDCAPS
280
     0
  9
$JOINSTYLE
280
     0
  9
$LWDISPLAY
290
     1
  9
$INSUNITS
 70
     4
  9
$HYPERLINKBASE
  1

  9
$STYLESHEET
  1

  9
$XEDIT
290
     1
  9
$CEPSNTYPE
380
     0
  9
$PSTYLEMODE
290
     1
  9
$FINGERPRINTGUID
  2
{bb055b8e-6dbb-4576-ab11-2043438f6490}
  9
$VERSIONGUID
  2
{FAEB1C32-E019-11D5-929B-00C0DF256EC4}
  9
$EXTNAMES
290
     1
  9
$PSVPSCALE
 40
0.0
  9
$OLESTARTUP
290
     0
  0
ENDSEC
  0
SECTION
  2
CLASSES
  0
CLASS
  1
ACDBDICTIONARYWDFLT
  2
AcDbDictionaryWithDefault
  3
ObjectDBX Classes
 90
        0
280
     0
281
     0
  0
CLASS
  1
VISUALSTYLE
  2
AcDbVisualStyle
  3
ObjectDBX Classes
 90
     4095
280
     0
281
     0
  0
CLASS
  1
MATERIAL
  2
AcDbMaterial
  3
ObjectDBX Classes
 90
     1153
280
     0
281
     0
  0
CLASS
  1
SCALE
  2
AcDbScale
  3
ObjectDBX Classes
 90
     1153
280
     0
281
     0
  0
CLASS
  1
TABLESTYLE
  2
AcDbTableStyle
  3
ObjectDBX Classes
 90
     4095
280
     0
281
     0
  0
CLASS
  1
MLEADERSTYLE
  2
AcDbMLeaderStyle
  3
ACDB_MLEADERSTYLE_CLASS
 90
     4095
280
     0
281
     0
  0
CLASS
  1
SUN
  2
AcDbSun
  3
SCENEOE
 90
     1153
280
     0
281
     0
  0
CLASS
  1
ACDBPLACEHOLDER
  2
AcDbPlaceHolder
  3
ObjectDBX Classes
 90
        0
280
     0
281
     0
  0
CLASS
  1
LAYOUT
  2
AcDbLayout
  3
ObjectDBX Classes
 90
        0
280
     0
281
     0
  0
ENDSEC
  0
SECTION
  2
TABLES
  0
TABLE
  2
VPORT
  5
8
330
0
100
AcDbSymbolTable
 70
     1
  0
VPORT
  5
29
330
8
100
AcDbSymbolTableRecord
100
AcDbViewportTableRecord
  2
*Active
 70
     0
 10
0.0
 20
0.0
 11
1.0
 21
1.0
 12
139.7
 22
107.95
 13
0.0
 23
0.0
 14
10.0
 24
10.0
 15
10.0
 25
10.0
 16
0.0
 26
0.0
 36
1.0
 17
0.0
 27
0.0
 37
0.0
 40
215.9
 41
1.2941176471
 42
50.0
 43
0.0
 44
0.0
 50
0.0
 51
0.0
 71
     0
 72
  2000
 73
     1
 74
     3
 75
     0
 76
     0
 77
     0
 78
     0
281
     0
 65
     1
110
0.0
120
0.0
130
0.0
111
1.0
121
0.0
131
0.0
112
0.0
122
1.0
132
0.0
 79
     0
146
0.0
  0
ENDTAB
  0
TABLE
  2
LTYPE
  5
5
330
0
100
AcDbSymbolTable
 70
     6
  0
LTYPE
  5
14
330
5
100
AcDbSymbolTableRecord
100
AcDbLinetypeTableRecord
  2
ByBlock
 70
     0
  3

 72
    65
 73
     0
 40
0.0
  0
LTYPE
  5
15
330
5
100
AcDbSymbolTableRecord
100
AcDbLinetypeTableRecord
  2
ByLayer
 70
     0
  3

 72
    65
 73
     0
 40
0.0
  0
LTYPE
  5
16
330
5
100
AcDbSymbolTableRecord
100
AcDbLinetypeTableRecord
  2
Continuous
 70
     0
  3
Solid line
 72
    65
 73
     0
 40
0.0
  0
LTYPE
  5
6E
330
5
100
AcDbSymbolTableRecord
100
AcDbLinetypeTableRecord
  2
HIDDEN
 70
     0
  3
Hidden __ __ __ __ __ __ __ __ __ __ __ __ __ __
 72
    65
 73
     2
 40
1.905
 49
1.27
 74
     0
 49
-0.635
 74
     0
  0
LTYPE
  5
6F
330
5
100
AcDbSymbolTableRecord
100
AcDbLinetypeTableRecord
  2
PHANTOM
 70
     0
  3
Phantom ______  __  __  ______  __  __  ______
 72
    65
 73
     6
 40
12.7
 49
6.35
 74
     0
 49
-1.27
 74
     0
 49
1.27
 74
     0
 49
-1.27
 74
     0
 49
1.27
 74
     0
 49
-1.27
 74
     0
  0
LTYPE
  5
70
330
5
100
AcDbSymbolTableRecord
100
AcDbLinetypeTableRecord
  2
CENTER
 70
     0
  3
Center ____ _ ____ _ ____ _ ____ _ ____ _ ____
 72
    65
 73
     4
 40
10.16
 49
6.35
 74
     0
 49
-1.27
 74
     0
 49
1.27
 74
     0
 49
-1.27
 74
     0
  0
LTYPE
  5
71
330
5
100
AcDbSymbolTableRecord
100
AcDbLinetypeTableRecord
  2
CENTERX2
 70
     0
  3
Center (2x) ________  __  ________  __  _____
 72
    65
 73
     4
 40
20.32
 49
12.7
 74
     0
 49
-2.54
 74
     0
 49
2.54
 74
     0
 49
-2.54
 74
     0
  0
LTYPE
  5
72
330
5
100
AcDbSymbolTableRecord
100
AcDbLinetypeTableRecord
  2
DOT2
 70
     0
  3
Dot (.5x) ........................................
 72
    65
 73
     2
 40
0.635
 49
0.0
 74
     0
 49
-0.635
 74
     0
  0
ENDTAB
  0
TABLE
  2
LAYER
  5
2
330
0
100
AcDbSymbolTable
 70
    17
  0
LAYER
  5
10
330
2
100
AcDbSymbolTableRecord
100
AcDbLayerTableRecord
  2
0
 70
     0
 62
     7
  6
Continuous
370
    -3
390
F
  0
LAYER
  5
73
330
2
100
AcDbSymbolTableRecord
100
AcDbLayerTableRecord
  2
FORMAT
 70
     0
 62
     7
  6
Continuous
370
    -3
390
F
  0
LAYER
  5
74
330
2
100
AcDbSymbolTableRecord
100
AcDbLayerTableRecord
  2
YARDIMCI_GEOMETRI
 70
     0
 62
    -6
  6
Continuous
290
     0
370
    -3
390
F
  0
LAYER
  5
75
330
2
100
AcDbSymbolTableRecord
100
AcDbLayerTableRecord
  2
SAYFA_CERCEVESI
 70
     0
 62
     7
  6
Continuous
370
    25
390
F
  0
LAYER
  5
76
330
2
100
AcDbSymbolTableRecord
100
AcDbLayerTableRecord
  2
ANTET
 70
     0
 62
     7
  6
Continuous
370
    -3
390
F
  0
LAYER
  5
77
330
2
100
AcDbSymbolTableRecord
100
AcDbLayerTableRecord
  2
OLCU
 70
     0
 62
   150
  6
Continuous
370
    -3
390
F
  0
LAYER
  5
78
330
2
100
AcDbSymbolTableRecord
100
AcDbLayerTableRecord
  2
METIN
 70
     0
 62
    96
  6
Continuous
370
    -3
390
F
  0
LAYER
  5
79
330
2
100
AcDbSymbolTableRecord
100
AcDbLayerTableRecord
  2
BALON
 70
     0
 62
     5
  6
Continuous
370
    -3
390
F
  0
LAYER
  5
7A
330
2
100
AcDbSymbolTableRecord
100
AcDbLayerTableRecord
  2
VURGU
 70
     0
 62
     7
  6
Continuous
370
    -3
390
F
  0
LAYER
  5
7B
330
2
100
AcDbSymbolTableRecord
100
AcDbLayerTableRecord
  2
SILIK
 70
     0
 62
     7
  6
Continuous
370
    -3
390
F
  0
LAYER
  5
7C
330
2
100
AcDbSymbolTableRecord
100
AcDbLayerTableRecord
  2
MODEL
 70
     0
 62
     7
  6
Continuous
370
    -3
390
F
  0
LAYER
  5
7D
330
2
100
AcDbSymbolTableRecord
100
AcDbLayerTableRecord
  2
DETAYLANDıRMA
 70
     0
 62
   190
  6
Continuous
370
    -3
390
F
  0
LAYER
  5
7E
330
2
100
AcDbSymbolTableRecord
100
AcDbLayerTableRecord
  2
TOLERANS
 70
     0
 62
   230
  6
Continuous
370
    -3
390
F
  0
LAYER
  5
7F
330
2
100
AcDbSymbolTableRecord
100
AcDbLayerTableRecord
  2
MERKEZ_CIZGILERI
 70
     0
 62
    30
  6
Continuous
370
    -3
390
F
  0
LAYER
  5
80
330
2
100
AcDbSymbolTableRecord
100
AcDbLayerTableRecord
  2
KESIT-DETAY_CIZGILERI
 70
     0
 62
     7
  6
Continuous
370
    -3
390
F
  0
LAYER
  5
81
330
2
100
AcDbSymbolTableRecord
100
AcDbLayerTableRecord
  2
\U+041E\U+0421\U+0415\U+0412\U+042B\U+0415
 70
     0
 62
     7
  6
Continuous
370
    -3
390
F
  0
LAYER
  5
82
330
2
100
AcDbSymbolTableRecord
100
AcDbLayerTableRecord
  2
\U+0412\U+041E\U+0414\U+042F\U+041D\U+042B\U+0415_\U+0417\U+041D\U+0410\U+041A\U+0418
 70
     0
 62
    11
  6
Continuous
370
    -3
390
F
  0
ENDTAB
  0
TABLE
  2
STYLE
  5
3
330
0
100
AcDbSymbolTable
 70
     1
  0
STYLE
  5
11
330
3
100
AcDbSymbolTableRecord
100
AcDbTextStyleTableRecord
  2
Standard
 70
     0
 40
0.0
 41
1.0
 50
0.0
 71
     0
 42
3.5
  3
txt
  4

  0
ENDTAB
  0
TABLE
  2
VIEW
  5
6
330
0
100
AcDbSymbolTable
 70
     0
  0
ENDTAB
  0
TABLE
  2
UCS
  5
7
330
0
100
AcDbSymbolTable
 70
     0
  0
ENDTAB
  0
TABLE
  2
APPID
  5
9
330
0
100
AcDbSymbolTable
 70
     1
  0
APPID
  5
12
330
9
100
AcDbSymbolTableRecord
100
AcDbRegAppTableRecord
  2
ACAD
 70
     0
  0
ENDTAB
  0
TABLE
  2
DIMSTYLE
  5
A
330
0
100
AcDbSymbolTable
 70
     1
100
AcDbDimStyleTable
  0
DIMSTYLE
105
27
330
A
100
AcDbSymbolTableRecord
100
AcDbDimStyleTableRecord
  2
ISO-25
 70
     0
 41
2.5
 42
0.625
 43
3.75
 44
1.25
 73
     0
 74
     0
 77
     1
 78
     8
140
2.5
141
2.5
143
0.0393700787
147
0.625
171
     3
172
     1
178
     0
271
     2
272
     2
274
     3
278
    44
283
     0
284
     8
340
11
  0
ENDTAB
  0
TABLE
  2
BLOCK_RECORD
  5
1
330
0
100
AcDbSymbolTable
 70
     2
  0
BLOCK_RECORD
  5
1F
330
1
100
AcDbSymbolTableRecord
100
AcDbBlockTableRecord
  2
*Model_Space
340
22
  0
BLOCK_RECORD
  5
1B
330
1
100
AcDbSymbolTableRecord
100
AcDbBlockTableRecord
  2
*Paper_Space
340
1E
  0
BLOCK_RECORD
  5
23
330
1
100
AcDbSymbolTableRecord
100
AcDbBlockTableRecord
  2
*Paper_Space0
340
26
  0
BLOCK_RECORD
  5
88
330
1
100
AcDbSymbolTableRecord
100
AcDbBlockTableRecord
  2
SW_CENTERMARKSYMBOL_0
340
0
102
{BLKREFS
331
93
102
}
  0
ENDTAB
  0
ENDSEC
  0
SECTION
  2
BLOCKS
  0
BLOCK
  5
20
330
1F
100
AcDbEntity
  8
0
100
AcDbBlockBegin
  2
*Model_Space
 70
     0
 10
0.0
 20
0.0
 30
0.0
  3
*Model_Space
  1

  0
ENDBLK
  5
21
330
1F
100
AcDbEntity
  8
0
100
AcDbBlockEnd
  0
BLOCK
  5
1C
330
1B
100
AcDbEntity
 67
     1
  8
0
100
AcDbBlockBegin
  2
*Paper_Space
 70
     0
 10
0.0
 20
0.0
 30
0.0
  3
*Paper_Space
  1

  0
ENDBLK
  5
1D
330
1B
100
AcDbEntity
 67
     1
  8
0
100
AcDbBlockEnd
  0
BLOCK
  5
24
330
23
100
AcDbEntity
  8
0
100
AcDbBlockBegin
  2
*Paper_Space0
 70
     0
 10
0.0
 20
0.0
 30
0.0
  3
*Paper_Space0
  1

  0
ENDBLK
  5
25
330
23
100
AcDbEntity
  8
0
100
AcDbBlockEnd
  0
BLOCK
  5
89
330
88
100
AcDbEntity
  8
0
100
AcDbBlockBegin
  2
SW_CENTERMARKSYMBOL_0
 70
     0
 10
0.0
 20
0.0
 30
0.0
  3
SW_CENTERMARKSYMBOL_0
  1

  0
LINE
  5
8B
330
88
100
AcDbEntity
  8
FORMAT
 62
     0
100
AcDbLine
 10
0.0
 20
0.0
 30
0.0
 11
0.0
 21
2.5
 31
0.0
  0
LINE
  5
8C
330
88
100
AcDbEntity
  8
FORMAT
 62
     0
100
AcDbLine
 10
0.0
 20
0.0
 30
0.0
 11
-2.5
 21
0.0
 31
0.0
  0
LINE
  5
8D
330
88
100
AcDbEntity
  8
FORMAT
 62
     0
100
AcDbLine
 10
0.0
 20
0.0
 30
0.0
 11
0.0
 21
-2.5
 31
0.0
  0
LINE
  5
8E
330
88
100
AcDbEntity
  8
FORMAT
 62
     0
100
AcDbLine
 10
0.0
 20
0.0
 30
0.0
 11
2.5
 21
0.0
 31
0.0
  0
LINE
  5
8F
330
88
100
AcDbEntity
  8
FORMAT
 62
     0
100
AcDbLine
 10
0.0
 20
5.0
 30
0.0
 11
0.0
 21
34.0
 31
0.0
  0
LINE
  5
90
330
88
100
AcDbEntity
  8
FORMAT
 62
     0
100
AcDbLine
 10
-5.0
 20
0.0
 30
0.0
 11
-34.0
 21
0.0
 31
0.0
  0
LINE
  5
91
330
88
100
AcDbEntity
  8
FORMAT
 62
     0
100
AcDbLine
 10
0.0
 20
-5.0
 30
0.0
 11
0.0
 21
-34.0
 31
0.0
  0
LINE
  5
92
330
88
100
AcDbEntity
  8
FORMAT
 62
     0
100
AcDbLine
 10
5.0
 20
0.0
 30
0.0
 11
34.0
 21
0.0
 31
0.0
  0
ENDBLK
  5
8A
330
88
100
AcDbEntity
  8
0
100
AcDbBlockEnd
  0
ENDSEC
  0
SECTION
  2
ENTITIES
  0
CIRCLE
  5
83
330
1F
100
AcDbEntity
  8
0
  6
Continuous
 62
     7
370
    25
100
AcDbCircle
 10
139.395004093
 20
107.5851680021
 30
0.0
 40
31.5
  0
CIRCLE
  5
84
330
1F
100
AcDbEntity
  8
0
  6
Continuous
 62
     7
370
    25
100
AcDbCircle
 10
139.395004093
 20
107.5851680021
 30
0.0
 40
25.7
  0
CIRCLE
  5
85
330
1F
100
AcDbEntity
  8
0
  6
Continuous
 62
     7
370
    25
100
AcDbCircle
 10
139.395004093
 20
107.5851680021
 30
0.0
 40
25.40373942015576
  0
CIRCLE
  5
86
330
1F
100
AcDbEntity
  8
0
  6
Continuous
 62
     7
370
    25
100
AcDbCircle
 10
139.395004093
 20
107.5851680021
 30
0.0
 40
13.29626057984426
  0
CIRCLE
  5
87
330
1F
100
AcDbEntity
  8
0
  6
Continuous
 62
     7
370
    25
100
AcDbCircle
 10
139.395004093
 20
107.5851680021
 30
0.0
 40
13.00000000000001
  0
INSERT
  5
93
330
1F
100
AcDbEntity
  8
FORMAT
 62
     7
100
AcDbBlockReference
  2
SW_CENTERMARKSYMBOL_0
 10
139.395004093
 20
107.5851680021
 30
0.0
  0
LINE
  5
94
330
1F
100
AcDbEntity
  8
0
  6
Continuous
 62
     7
370
    25
100
AcDbLine
 10
-27.8839654714
 20
139.0851685088
 30
0.0
 11
-90.5345081776
 21
139.0851685088
 31
0.0
  0
LINE
  5
95
330
1F
100
AcDbEntity
  8
0
  6
Continuous
 62
     7
370
    25
100
AcDbLine
 10
-90.5345081776
 20
76.0851674955
 30
0.0
 11
-27.8839654714
 21
76.0851674955
 31
0.0
  0
ARC
  5
96
330
1F
100
AcDbEntity
  8
0
  6
Continuous
 62
     7
370
    25
100
AcDbCircle
 10
-27.8839657001
 20
137.0851680021
 30
0.0
 40
2.000000000000014
100
AcDbArc
 50
70.1775354296
 51
90.0
  0
ARC
  5
97
330
1F
100
AcDbEntity
  8
0
  6
Continuous
 62
     7
370
    25
100
AcDbCircle
 10
-27.8839657001
 20
78.0851680021
 30
0.0
 40
2.000000000000001
100
AcDbArc
 50
270.0
 51
289.8224645704
  0
LINE
  5
98
330
1F
100
AcDbEntity
  8
0
  6
Continuous
 62
     7
370
    25
100
AcDbLine
 10
-27.2057521582
 20
76.2036727052
 30
0.0
 11
15.1367411524
 21
91.4666638951
 31
0.0
  0
LINE
  5
99
330
1F
100
AcDbEntity
  8
0
  6
Continuous
 62
     7
370
    25
100
AcDbLine
 10
15.1367411524
 20
123.7036721091
 30
0.0
 11
-27.2057521582
 21
138.9666632991
 31
0.0
  0
ARC
  5
9A
330
1F
100
AcDbEntity
  8
0
  6
Continuous
 62
     7
370
    25
100
AcDbCircle
 10
15.8149541301
 20
125.5851680021
 30
0.0
 40
1.999999999999999
100
AcDbArc
 50
250.1775354296
 51
270.0
  0
ARC
  5
9B
330
1F
100
AcDbEntity
  8
0
  6
Continuous
 62
     7
370
    25
100
AcDbCircle
 10
15.8149541301
 20
89.5851680021
 30
0.0
 40
2.0
100
AcDbArc
 50
90.0
 51
109.8224645704
  0
LINE
  5
9C
330
1F
100
AcDbEntity
  8
0
  6
Continuous
 62
     7
370
    25
100
AcDbLine
 10
59.4654977828
 20
123.5851687621
 30
0.0
 11
15.8149544656
 21
123.5851687621
 31
0.0
  0
LINE
  5
9D
330
1F
100
AcDbEntity
  8
0
  6
Continuous
 62
     7
370
    25
100
AcDbLine
 10
15.8149544656
 20
91.5851672422
 30
0.0
 11
59.4654977828
 21
91.5851672422
 31
0.0
  0
LINE
  5
9E
330
1F
100
AcDbEntity
  8
0
  6
Continuous
 62
     7
370
    25
100
AcDbLine
 10
-90.5345081776
 20
139.0851685088
 30
0.0
 11
-90.5345081776
 21
76.0851674955
 31
0.0
  0
LINE
  5
9F
330
1F
100
AcDbEntity
  8
0
  6
Continuous
 62
     7
370
    25
100
AcDbLine
 10
59.4654977828
 20
123.5851687621
 30
0.0
 11
59.4654977828
 21
91.5851672422
 31
0.0
  0
LINE
  5
A0
330
1F
100
AcDbEntity
  8
0
  6
Continuous
 62
     1
370
    25
100
AcDbLine
 10
-27.8839654714
 20
139.0851685088
 30
0.0
 11
-27.8839654714
 21
76.0851674955
 31
0.0
  0
LINE
  5
A1
330
1F
100
AcDbEntity
  8
0
  6
Continuous
 62
     1
370
    25
100
AcDbLine
 10
-27.2057521582
 20
138.9666632991
 30
0.0
 11
-27.2057521582
 21
76.2036727052
 31
0.0
  0
LINE
  5
A2
330
1F
100
AcDbEntity
  8
0
  6
Continuous
 62
     1
370
    25
100
AcDbLine
 10
15.1367411524
 20
123.7036721091
 30
0.0
 11
15.1367411524
 21
91.4666638951
 31
0.0
  0
LINE
  5
A3
330
1F
100
AcDbEntity
  8
0
  6
Continuous
 62
     1
370
    25
100
AcDbLine
 10
15.8149544656
 20
123.5851687621
 30
0.0
 11
15.8149544656
 21
91.5851672422
 31
0.0
  0
LINE
  5
A4
330
1F
100
AcDbEntity
  8
0
  6
Continuous
 62
     7
370
    25
100
AcDbLine
 10
297.3476931071
 20
76.0851674955
 30
0.0
 11
359.9982358133
 21
76.0851674955
 31
0.0
  0
LINE
  5
A5
330
1F
100
AcDbEntity
  8
0
  6
Continuous
 62
     7
370
    25
100
AcDbLine
 10
359.9982358133
 20
139.0851685088
 30
0.0
 11
297.3476931071
 21
139.0851685088
 31
0.0
  0
ARC
  5
A6
330
1F
100
AcDbEntity
  8
0
  6
Continuous
 62
     7
370
    25
100
AcDbCircle
 10
297.3476933358
 20
78.0851680021
 30
0.0
 40
2.0
100
AcDbArc
 50
250.1775354296
 51
270.0
  0
ARC
  5
A7
330
1F
100
AcDbEntity
  8
0
  6
Continuous
 62
     7
370
    25
100
AcDbCircle
 10
297.3476933358
 20
137.0851680021
 30
0.0
 40
2.000000000000004
100
AcDbArc
 50
90.0
 51
109.8224645704
  0
LINE
  5
A8
330
1F
100
AcDbEntity
  8
0
  6
Continuous
 62
     7
370
    25
100
AcDbLine
 10
296.6694797938
 20
138.9666632991
 30
0.0
 11
254.3269864833
 21
123.7036721091
 31
0.0
  0
LINE
  5
A9
330
1F
100
AcDbEntity
  8
0
  6
Continuous
 62
     7
370
    25
100
AcDbLine
 10
254.3269864833
 20
91.4666638951
 30
0.0
 11
296.6694797938
 21
76.2036727052
 31
0.0
  0
ARC
  5
AA
330
1F
100
AcDbEntity
  8
0
  6
Continuous
 62
     7
370
    25
100
AcDbCircle
 10
253.6487735055
 20
89.5851680021
 30
0.0
 40
2.0
100
AcDbArc
 50
70.1775354296
 51
90.0
  0
ARC
  5
AB
330
1F
100
AcDbEntity
  8
0
  6
Continuous
 62
     7
370
    25
100
AcDbCircle
 10
253.6487735055
 20
125.5851680021
 30
0.0
 40
2.0
100
AcDbArc
 50
270.0
 51
289.8224645704
  0
LINE
  5
AC
330
1F
100
AcDbEntity
  8
0
  6
Continuous
 62
     7
370
    25
100
AcDbLine
 10
209.9982298528
 20
91.5851672422
 30
0.0
 11
253.64877317
 21
91.5851672422
 31
0.0
  0
LINE
  5
AD
330
1F
100
AcDbEntity
  8
0
  6
Continuous
 62
     7
370
    25
100
AcDbLine
 10
253.64877317
 20
123.5851687621
 30
0.0
 11
209.9982298528
 21
123.5851687621
 31
0.0
  0
LINE
  5
AE
330
1F
100
AcDbEntity
  8
0
  6
Continuous
 62
     7
370
    25
100
AcDbLine
 10
359.9982358133
 20
107.5851680021
 30
0.0
 11
359.9982358133
 21
139.0851685088
 31
0.0
  0
LINE
  5
AF
330
1F
100
AcDbEntity
  8
0
  6
Continuous
 62
     7
370
    25
100
AcDbLine
 10
359.9982358133
 20
76.0851674955
 30
0.0
 11
359.9982358133
 21
107.5851680021
 31
0.0
  0
LINE
  5
B0
330
1F
100
AcDbEntity
  8
0
  6
Continuous
 62
     7
370
    25
100
AcDbLine
 10
209.9982298528
 20
107.5851680021
 30
0.0
 11
209.9982298528
 21
123.5851687621
 31
0.0
  0
LINE
  5
B1
330
1F
100
AcDbEntity
  8
0
  6
Continuous
 62
     7
370
    25
100
AcDbLine
 10
209.9982298528
 20
91.5851672422
 30
0.0
 11
209.9982298528
 21
107.5851680021
 31
0.0
  0
LINE
  5
B2
330
1F
100
AcDbEntity
  8
0
  6
Continuous
 62
     1
370
    25
100
AcDbLine
 10
297.3476931071
 20
107.5851680021
 30
0.0
 11
297.3476931071
 21
139.0851685088
 31
0.0
  0
LINE
  5
B3
330
1F
100
AcDbEntity
  8
0
  6
Continuous
 62
     1
370
    25
100
AcDbLine
 10
297.3476931071
 20
76.0851674955
 30
0.0
 11
297.3476931071
 21
107.5851680021
 31
0.0
  0
LINE
  5
B4
330
1F
100
AcDbEntity
  8
0
  6
Continuous
 62
     1
370
    25
100
AcDbLine
 10
296.6694797938
 20
107.5851680021
 30
0.0
 11
296.6694797938
 21
138.9666632991
 31
0.0
  0
LINE
  5
B5
330
1F
100
AcDbEntity
  8
0
  6
Continuous
 62
     1
370
    25
100
AcDbLine
 10
296.6694797938
 20
76.2036727052
 30
0.0
 11
296.6694797938
 21
107.5851680021
 31
0.0
  0
LINE
  5
B6
330
1F
100
AcDbEntity
  8
0
  6
Continuous
 62
     1
370
    25
100
AcDbLine
 10
254.3269864833
 20
107.5851680021
 30
0.0
 11
254.3269864833
 21
123.7036721091
 31
0.0
  0
LINE
  5
B7
330
1F
100
AcDbEntity
  8
0
  6
Continuous
 62
     1
370
    25
100
AcDbLine
 10
254.3269864833
 20
91.4666638951
 30
0.0
 11
254.3269864833
 21
107.5851680021
 31
0.0
  0
LINE
  5
B8
330
1F
100
AcDbEntity
  8
0
  6
Continuous
 62
     1
370
    25
100
AcDbLine
 10
253.64877317
 20
107.5851680021
 30
0.0
 11
253.64877317
 21
123.5851687621
 31
0.0
  0
LINE
  5
B9
330
1F
100
AcDbEntity
  8
0
  6
Continuous
 62
     1
370
    25
100
AcDbLine
 10
253.64877317
 20
91.5851672422
 30
0.0
 11
253.64877317
 21
107.5851680021
 31
0.0
  0
LINE
  5
BA
330
1F
100
AcDbEntity
  8
0
  6
Continuous
 62
     7
370
    25
100
AcDbLine
 10
170.8950045997
 20
272.4550698068
 30
0.0
 11
170.8950045997
 21
335.105612513
 31
0.0
  0
LINE
  5
BB
330
1F
100
AcDbEntity
  8
0
  6
Continuous
 62
     7
370
    25
100
AcDbLine
 10
107.8950035864
 20
335.105612513
 30
0.0
 11
107.8950035864
 21
272.4550698068
 31
0.0
  0
ARC
  5
BC
330
1F
100
AcDbEntity
  8
0
  6
Continuous
 62
     7
370
    25
100
AcDbCircle
 10
168.895004093
 20
272.4550700355
 30
0.0
 40
2.0
100
AcDbArc
 50
340.1775354296
 51
0.0
  0
ARC
  5
BD
330
1F
100
AcDbEntity
  8
0
  6
Continuous
 62
     7
370
    25
100
AcDbCircle
 10
109.895004093
 20
272.4550700355
 30
0.0
 40
2.0
100
AcDbArc
 50
180.0
 51
199.8224645704
  0
LINE
  5
BE
330
1F
100
AcDbEntity
  8
0
  6
Continuous
 62
     7
370
    25
100
AcDbLine
 10
108.0135087961
 20
271.7768564936
 30
0.0
 11
123.276499986
 21
229.434363183
 31
0.0
  0
LINE
  5
BF
330
1F
100
AcDbEntity
  8
0
  6
Continuous
 62
     7
370
    25
100
AcDbLine
 10
155.5135082
 20
229.434363183
 30
0.0
 11
170.77649939
 21
271.7768564936
 31
0.0
  0
ARC
  5
C0
330
1F
100
AcDbEntity
  8
0
  6
Continuous
 62
     7
370
    25
100
AcDbCircle
 10
157.395004093
 20
228.7561502053
 30
0.0
 40
2.000000000000028
100
AcDbArc
 50
160.1775354296
 51
180.0
  0
ARC
  5
C1
330
1F
100
AcDbEntity
  8
0
  6
Continuous
 62
     7
370
    25
100
AcDbCircle
 10
121.395004093
 20
228.7561502053
 30
0.0
 40
1.999999999999986
100
AcDbArc
 50
0.0
 51
19.8224645704
  0
LINE
  5
C2
330
1F
100
AcDbEntity
  8
0
  6
Continuous
 62
     7
370
    25
100
AcDbLine
 10
155.395004853
 20
185.1056065526
 30
0.0
 11
155.395004853
 21
228.7561498698
 31
0.0
  0
LINE
  5
C3
330
1F
100
AcDbEntity
  8
0
  6
Continuous
 62
     7
370
    25
100
AcDbLine
 10
123.3950033331
 20
228.7561498698
 30
0.0
 11
123.3950033331
 21
185.1056065526
 31
0.0
  0
LINE
  5
C4
330
1F
100
AcDbEntity
  8
0
  6
Continuous
 62
     7
370
    25
100
AcDbLine
 10
170.8950045997
 20
335.105612513
 30
0.0
 11
107.8950035864
 21
335.105612513
 31
0.0
  0
LINE
  5
C5
330
1F
100
AcDbEntity
  8
0
  6
Continuous
 62
     7
370
    25
100
AcDbLine
 10
155.395004853
 20
185.1056065526
 30
0.0
 11
123.3950033331
 21
185.1056065526
 31
0.0
  0
LINE
  5
C6
330
1F
100
AcDbEntity
  8
0
  6
Continuous
 62
     1
370
    25
100
AcDbLine
 10
170.8950045997
 20
272.4550698068
 30
0.0
 11
107.8950035864
 21
272.4550698068
 31
0.0
  0
LINE
  5
C7
330
1F
100
AcDbEntity
  8
0
  6
Continuous
 62
     1
370
    25
100
AcDbLine
 10
170.77649939
 20
271.7768564936
 30
0.0
 11
108.0135087961
 21
271.7768564936
 31
0.0
  0
LINE
  5
C8
330
1F
100
AcDbEntity
  8
0
  6
Continuous
 62
     1
370
    25
100
AcDbLine
 10
155.5135082
 20
229.434363183
 30
0.0
 11
123.276499986
 21
229.434363183
 31
0.0
  0
LINE
  5
C9
330
1F
100
AcDbEntity
  8
0
  6
Continuous
 62
     1
370
    25
100
AcDbLine
 10
155.395004853
 20
228.7561498698
 30
0.0
 11
123.3950033331
 21
228.7561498698
 31
0.0
  0
LINE
  5
CA
330
1F
100
AcDbEntity
  8
0
  6
Continuous
 62
     7
370
    25
100
AcDbLine
 10
107.8950035864
 20
-53.5131521692
 30
0.0
 11
107.8950035864
 21
-116.1636948755
 31
0.0
  0
LINE
  5
CB
330
1F
100
AcDbEntity
  8
0
  6
Continuous
 62
     7
370
    25
100
AcDbLine
 10
170.8950045997
 20
-116.1636948755
 30
0.0
 11
170.8950045997
 21
-53.5131521692
 31
0.0
  0
ARC
  5
CC
330
1F
100
AcDbEntity
  8
0
  6
Continuous
 62
     7
370
    25
100
AcDbCircle
 10
109.895004093
 20
-53.5131523979
 30
0.0
 40
2.0
100
AcDbArc
 50
160.1775354296
 51
180.0
  0
ARC
  5
CD
330
1F
100
AcDbEntity
  8
0
  6
Continuous
 62
     7
370
    25
100
AcDbCircle
 10
168.895004093
 20
-53.5131523979
 30
0.0
 40
2.0
100
AcDbArc
 50
0.0
 51
19.8224645704
  0
LINE
  5
CE
330
1F
100
AcDbEntity
  8
0
  6
Continuous
 62
     7
370
    25
100
AcDbLine
 10
170.77649939
 20
-52.834938856
 30
0.0
 11
155.5135082
 21
-10.4924455454
 31
0.0
  0
LINE
  5
CF
330
1F
100
AcDbEntity
  8
0
  6
Continuous
 62
     7
370
    25
100
AcDbLine
 10
123.276499986
 20
-10.4924455454
 30
0.0
 11
108.0135087961
 21
-52.834938856
 31
0.0
  0
ARC
  5
D0
330
1F
100
AcDbEntity
  8
0
  6
Continuous
 62
     7
370
    25
100
AcDbCircle
 10
121.395004093
 20
-9.8142325677
 30
0.0
 40
1.999999999999986
100
AcDbArc
 50
340.1775354296
 51
0.0
  0
ARC
  5
D1
330
1F
100
AcDbEntity
  8
0
  6
Continuous
 62
     7
370
    25
100
AcDbCircle
 10
157.395004093
 20
-9.8142325677
 30
0.0
 40
2.000000000000028
100
AcDbArc
 50
180.0
 51
199.8224645704
  0
LINE
  5
D2
330
1F
100
AcDbEntity
  8
0
  6
Continuous
 62
     7
370
    25
100
AcDbLine
 10
123.3950033331
 20
33.836311085
 30
0.0
 11
123.3950033331
 21
-9.8142322322
 31
0.0
  0
LINE
  5
D3
330
1F
100
AcDbEntity
  8
0
  6
Continuous
 62
     7
370
    25
100
AcDbLine
 10
155.395004853
 20
-9.8142322322
 30
0.0
 11
155.395004853
 21
33.836311085
 31
0.0
  0
LINE
  5
D4
330
1F
100
AcDbEntity
  8
0
  6
Continuous
 62
     7
370
    25
100
AcDbLine
 10
107.8950035864
 20
-116.1636948755
 30
0.0
 11
170.8950045997
 21
-116.1636948755
 31
0.0
  0
LINE
  5
D5
330
1F
100
AcDbEntity
  8
0
  6
Continuous
 62
     7
370
    25
100
AcDbLine
 10
123.3950033331
 20
33.836311085
 30
0.0
 11
155.395004853
 21
33.836311085
 31
0.0
  0
LINE
  5
D6
330
1F
100
AcDbEntity
  8
0
  6
Continuous
 62
     1
370
    25
100
AcDbLine
 10
107.8950035864
 20
-53.5131521692
 30
0.0
 11
170.8950045997
 21
-53.5131521692
 31
0.0
  0
LINE
  5
D7
330
1F
100
AcDbEntity
  8
0
  6
Continuous
 62
     1
370
    25
100
AcDbLine
 10
108.0135087961
 20
-52.834938856
 30
0.0
 11
170.77649939
 21
-52.834938856
 31
0.0
  0
LINE
  5
D8
330
1F
100
AcDbEntity
  8
0
  6
Continuous
 62
     1
370
    25
100
AcDbLine
 10
123.276499986
 20
-10.4924455454
 30
0.0
 11
155.5135082
 21
-10.4924455454
 31
0.0
  0
LINE
  5
D9
330
1F
100
AcDbEntity
  8
0
  6
Continuous
 62
     1
370
    25
100
AcDbLine
 10
123.3950033331
 20
-9.8142322322
 30
0.0
 11
155.395004853
 21
-9.8142322322
 31
0.0
  0
LINE
  5
DA
330
1F
100
AcDbEntity
  8
0
  6
Continuous
 62
     7
370
    25
100
AcDbLine
 10
290.4765687976
 20
4.3942744775
 30
0.0
 11
246.175945205
 21
29.9684801153
 31
0.0
  0
LINE
  5
DB
330
1F
100
AcDbEntity
  8
0
  6
Continuous
 62
     7
370
    25
100
AcDbLine
 10
214.6785042264
 20
-24.5925981256
 30
0.0
 11
258.979127819
 21
-50.1668037633
 31
0.0
  0
SPLINE
  5
DC
330
1F
100
AcDbEntity
  8
0
  6
Continuous
 62
     7
370
    25
100
AcDbSpline
210
0.0
220
0.0
230
1.0
 70
     8
 71
     3
 72
    13
 73
     9
 74
     0
 42
0.000000001
 43
0.00000001
 40
0.0
 40
0.0
 40
0.0
 40
0.0
 40
0.0481864295201885
 40
0.2639260120952088
 40
0.4777564241873897
 40
0.689868293359786
 40
0.9006282603122527
 40
1.0
 40
1.0
 40
1.0
 40
1.0
 10
294.4020986090255
 20
0.7588616826379319
 30
0.0
 10
294.3523301050795
 20
0.8341780767017262
 30
0.0
 10
294.0797387779114
 20
1.24669993666484
 30
0.0
 10
293.5126426698327
 20
1.917832656726078
 30
0.0
 10
292.7042993947985
 20
2.762759594693604
 30
0.0
 10
291.8262256279004
 20
3.504107187792711
 30
0.0
 10
291.0654946389415
 20
4.056047893482982
 30
0.0
 10
290.5782121925418
 20
4.324168764792316
 30
0.0
 10
290.4220781908217
 20
4.410079482265364
 30
0.0
  0
SPLINE
  5
DD
330
1F
100
AcDbEntity
  8
0
  6
Continuous
 62
     7
370
    25
100
AcDbSpline
210
0.0
220
0.0
230
1.0
 70
     8
 71
     3
 72
    12
 73
     8
 74
     0
 42
0.000000001
 43
0.00000001
 40
0.0
 40
0.0
 40
0.0
 40
0.0
 40
0.2061414948154658
 40
0.4175454696964251
 40
0.6293500373681116
 40
0.8421116919840751
 40
1.0
 40
1.0
 40
1.0
 40
1.0
 10
258.9998416779359
 20
-50.17720005178568
 30
0.0
 10
259.3222817057945
 20
-50.35172709395533
 30
0.0
 10
259.9753931669375
 20
-50.70523658927888
 30
0.0
 10
261.0216551133044
 20
-51.11893538185817
 30
0.0
 10
262.1180631863917
 20
-51.44305213232285
 30
0.0
 10
263.1534493447051
 20
-51.65924742154269
 30
0.0
 10
263.8346640645363
 20
-51.72334589503523
 30
0.0
 10
264.1248457733
 20
-51.75065036163836
 30
0.0
  0
LINE
  5
DE
330
1F
100
AcDbEntity
  8
0
  6
Continuous
 62
     7
370
    25
100
AcDbLine
 10
264.0362649515
 20
-51.752373188
 30
0.0
 11
299.4102327862
 21
-55.1318167017
 31
0.0
  0
LINE
  5
DF
330
1F
100
AcDbEntity
  8
0
  6
Continuous
 62
     7
370
    25
100
AcDbLine
 10
314.9950007177
 20
-28.1352821591
 30
0.0
 11
294.378616229
 21
0.8078165584
 31
0.0
  0
LINE
  5
E0
330
1F
100
AcDbEntity
  8
0
  6
Continuous
 62
     7
370
    25
100
AcDbLine
 10
344.492596125
 20
-44.6858880555
 30
0.0
 11
314.4167367365
 21
-27.3234640001
 31
0.0
  0
LINE
  5
E1
330
1F
100
AcDbEntity
  8
0
  6
Continuous
 62
     7
370
    25
100
AcDbLine
 10
298.4180367032
 20
-55.037027539
 30
0.0
 11
328.4938960917
 21
-72.3994515944
 31
0.0
  0
LWPOLYLINE
  5
E2
330
1F
100
AcDbEntity
  8
0
  6
Continuous
 62
     7
370
    25
100
AcDbPolyline
 90
      103
 70
   128
 43
0.0
 10
208.1533607501
 20
-10.1704869732
 10
208.1956076973
 20
-8.5626880681
 10
208.3221852201
 20
-6.9122126742
 10
208.5326165322
 20
-5.2253194514
 10
208.8260995264
 20
-3.5084096158
 10
209.2015252137
 20
-1.7679935764
 10
209.6574658696
 20
-0.0106758192
 10
210.1921934733
 20
1.7568787407
 10
210.8036797079
 20
3.5279660528
 10
211.4896038623
 20
5.2958661244
 10
212.247366003
 20
7.0538734377
 10
213.0740896074
 20
8.7953182424
 10
213.9666413208
 20
10.5135977334
 10
214.9216322733
 20
12.2021912594
 10
215.935441787
 20
13.8546937811
 10
217.0042226449
 20
15.4648356431
 10
218.1239221643
 20
17.026511469
 10
219.2902927329
 20
18.533796891
 10
220.4989095902
 20
19.9809740236
 10
221.7451872909
 20
21.3625516143
 10
223.0243994609
 20
22.673290137
 10
224.3316926273
 20
23.9082173803
 10
225.6621082792
 20
25.0626487878
 10
227.01059999
 20
26.1322049469
 10
228.3720518568
 20
27.1128283175
 10
229.7412997792
 20
28.0008000791
 10
231.1131496521
 20
28.7927521536
 10
232.4823975746
 20
29.4856803928
 10
233.8438494413
 20
30.0769558887
 10
235.1923411521
 20
30.5643351186
 10
236.522756804
 20
30.9459689268
 10
237.8300499705
 20
31.2204102456
 10
239.1092621405
 20
31.3866186567
 10
240.3555398412
 20
31.4439626709
 10
241.5641566985
 20
31.392224859
 10
242.7305272671
 20
31.231602231
 10
243.8502267864
 20
30.9627039525
 10
244.9190076444
 20
30.586550203
 10
245.9328171581
 20
30.1045672306
 10
246.8878081105
 20
29.5185827886
 10
247.780359824
 20
28.8308215708
 10
248.6070834284
 20
28.0438915223
 10
249.364845569
 20
27.160777754
 10
250.0507697235
 20
26.1848288539
 10
250.662255958
 20
25.1197485204
 10
251.1969835618
 20
23.9695773104
 10
251.6529242177
 20
22.7386774295
 10
252.028349905
 20
21.4317186622
 10
252.3218328992
 20
20.0536570791
 10
252.5322642112
 20
18.6097226777
 10
252.658841734
 20
17.1053905808
 10
252.7010886813
 20
15.5463689629
 10
252.658841734
 20
13.9385700578
 10
252.5322642112
 20
12.288094664
 10
252.3218328992
 20
10.6012014411
 10
252.028349905
 20
8.8842916055
 10
251.6529242177
 20
7.1438755661
 10
251.1969835618
 20
5.386557809
 10
250.662255958
 20
3.6190032491
 10
250.0507697235
 20
1.8479159369
 10
249.364845569
 20
0.0800158653
 10
248.6070834284
 20
-1.6779914479
 10
247.780359824
 20
-3.4194362527
 10
246.8878081105
 20
-5.1377157437
 10
245.9328171581
 20
-6.8263092697
 10
244.9190076444
 20
-8.4788117914
 10
243.8502267864
 20
-10.0889536534
 10
242.7305272671
 20
-11.6506294792
 10
241.5641566985
 20
-13.1579149012
 10
240.3555398412
 20
-14.6050920338
 10
239.1092621405
 20
-15.9866696245
 10
237.8300499705
 20
-17.2974081473
 10
236.522756804
 20
-18.5323353906
 10
235.1923411521
 20
-19.6867667981
 10
233.8438494413
 20
-20.7563229572
 10
232.4823975746
 20
-21.7369463278
 10
231.1131496521
 20
-22.6249180894
 10
229.7412997792
 20
-23.4168701638
 10
228.3720518568
 20
-24.1097984031
 10
227.01059999
 20
-24.701073899
 10
225.6621082792
 20
-25.1884531289
 10
224.3316926273
 20
-25.5700869371
 10
223.0243994609
 20
-25.8445282559
 10
221.7451872909
 20
-26.010736667
 10
220.4989095902
 20
-26.0680806812
 10
219.2902927329
 20
-26.0163428693
 10
218.1239221643
 20
-25.8557202413
 10
217.0042226449
 20
-25.5868219628
 10
215.935441787
 20
-25.2106682133
 10
214.9216322733
 20
-24.7286852409
 10
213.9666413208
 20
-24.1427007989
 10
213.0740896074
 20
-23.454939581
 10
212.247366003
 20
-22.6680095325
 10
211.4896038623
 20
-21.7848957643
 10
210.8036797079
 20
-20.8089468642
 10
210.1921934733
 20
-19.7438665307
 10
209.6574658696
 20
-18.5936953207
 10
209.2015252137
 20
-17.3627954398
 10
208.8260995264
 20
-16.0558366725
 10
208.5326165322
 20
-14.6777750894
 10
208.3221852201
 20
-13.233840688
 10
208.1956076973
 20
-11.7295085911
 10
208.1533607501
 20
-10.1704869732
  0
LWPOLYLINE
  5
E3
330
1F
100
AcDbEntity
  8
0
  6
Continuous
 62
     7
370
    25
100
AcDbPolyline
 90
       93
 70
   128
 43
0.0
 10
212.2545810166
 20
-7.8029029087
 10
212.2969451848
 20
-6.3463728215
 10
212.4238414431
 20
-4.8477202616
 10
212.6346784186
 20
-3.3139329718
 10
212.9284709287
 20
-1.7521625381
 10
213.303851835
 20
-0.1696900742
 10
213.759069409
 20
1.4261061932
 10
214.2920031376
 20
3.0277864742
 10
214.9001650394
 20
4.6278809753
 10
215.5807220561
 20
6.2189313424
 10
216.3305000031
 20
7.7935180369
 10
217.1460033262
 20
9.3442998779
 10
218.0234295894
 20
10.8640467412
 10
218.9586879142
 20
12.3456730173
 10
219.9474180774
 20
13.7822706904
 10
220.9850102675
 20
15.1671420356
 10
222.0666261579
 20
16.4938285156
 10
223.1872232734
 20
17.7561476599
 10
224.3415767218
 20
18.9482101737
 10
225.5243038896
 20
20.0644600499
 10
226.729891113
 20
21.0996914866
 10
227.952716562
 20
22.0490803497
 10
229.1870796284
 20
22.9081980957
 10
230.4272247157
 20
23.6730391935
 10
231.6673698029
 20
24.3400391358
 10
232.9017328694
 20
24.9060866509
 10
234.1245583184
 20
25.3685419992
 10
235.3301455417
 20
25.7252519422
 10
236.5128727095
 20
25.9745497876
 10
237.6672261579
 20
26.1152753961
 10
238.7878232734
 20
26.1467701418
 10
239.8694391639
 20
26.0688907873
 10
240.9070313539
 20
25.8819978849
 10
241.8957615171
 20
25.5869637595
 10
242.8310198419
 20
25.1851637604
 10
243.7084461051
 20
24.6784716971
 10
244.5239494282
 20
24.0692499513
 10
245.2737273752
 20
23.360338448
 10
245.954284392
 20
22.5550424872
 10
246.5624462938
 20
21.6571167718
 10
247.0953800223
 20
20.6707486765
 10
247.5505975964
 20
19.6005354328
 10
247.9259785027
 20
18.4514685379
 10
248.2197710127
 20
17.2289037162
 10
248.4306079882
 20
15.9385436169
 10
248.5575042466
 20
14.5864023582
 10
248.5998684148
 20
13.1787848984
 10
248.5575042466
 20
11.7222548112
 10
248.4306079882
 20
10.2236022513
 10
248.2197710127
 20
8.6898149616
 10
247.9259785027
 20
7.1280445278
 10
247.5505975964
 20
5.5455720639
 10
247.0953800223
 20
3.9497757965
 10
246.5624462938
 20
2.3480955155
 10
245.954284392
 20
0.7480010144
 10
245.2737273752
 20
-0.8430493527
 10
244.5239494282
 20
-2.4176360472
 10
243.7084461051
 20
-3.9684178882
 10
242.8310198419
 20
-5.4881647515
 10
241.8957615171
 20
-6.9697910276
 10
240.9070313539
 20
-8.4063887006
 10
239.8694391639
 20
-9.7912600459
 10
238.7878232734
 20
-11.1179465259
 10
237.6672261579
 20
-12.3802656702
 10
236.5128727095
 20
-13.572328184
 10
235.3301455417
 20
-14.6885780601
 10
234.1245583184
 20
-15.7238094969
 10
232.9017328694
 20
-16.67319836
 10
231.6673698029
 20
-17.532316106
 10
230.4272247157
 20
-18.2971572038
 10
229.1870796284
 20
-18.9641571461
 10
227.952716562
 20
-19.5302046612
 10
226.729891113
 20
-19.9926600095
 10
225.5243038896
 20
-20.3493699525
 10
224.3415767218
 20
-20.5986677979
 10
223.1872232734
 20
-20.7393934064
 10
222.0666261579
 20
-20.7708881521
 10
220.9850102675
 20
-20.6930087976
 10
219.9474180774
 20
-20.5061158952
 10
218.9586879142
 20
-20.2110817698
 10
218.0234295894
 20
-19.8092817707
 10
217.1460033262
 20
-19.3025897074
 10
216.3305000031
 20
-18.6933679616
 10
215.5807220561
 20
-17.9844564583
 10
214.9001650394
 20
-17.1791604975
 10
214.2920031376
 20
-16.2812347821
 10
213.759069409
 20
-15.2948666868
 10
213.303851835
 20
-14.2246534431
 10
212.9284709287
 20
-13.0755865482
 10
212.6346784186
 20
-11.8530217264
 10
212.4238414431
 20
-10.5626616271
 10
212.2969451848
 20
-9.2105203685
 10
212.2545810166
 20
-7.8029029087
  0
LINE
  5
E4
330
1F
100
AcDbEntity
  8
0
  6
Continuous
 62
     7
370
    25
100
AcDbLine
 10
294.378616229
 20
0.8078165584
 30
0.0
 11
294.4058207026
 21
0.7694722272
 31
0.0
  0
LINE
  5
E5
330
1F
100
AcDbEntity
  8
0
  6
Continuous
 62
     7
370
    25
100
AcDbLine
 10
264.1143077441
 20
-51.7595836155
 30
0.0
 11
264.0362649515
 21
-51.752373188
 31
0.0
  0
LWPOLYLINE
  5
E6
330
1F
100
AcDbEntity
  8
0
  6
Continuous
 62
     7
370
    25
100
AcDbPolyline
 90
       38
 70
   128
 43
0.0
 10
344.492596125
 20
-44.6858880555
 10
344.4932461084
 20
-44.6862634049
 10
345.1600494231
 20
-45.1416337375
 10
345.7608935783
 20
-45.6989938254
 10
346.2912049826
 20
-46.3541017579
 10
346.7469480752
 20
-47.1019727022
 10
347.1246543021
 20
-47.9369138879
 10
347.4214491166
 20
-48.8525713778
 10
347.635073711
 20
-49.8419764582
 10
347.7639021389
 20
-50.8975990631
 10
347.8069551447
 20
-52.0114046201
 10
347.7639021389
 20
-53.1749181195
 10
347.635073711
 20
-54.3792828613
 10
347.4214491166
 20
-55.6153336484
 10
347.1246543021
 20
-56.8736631371
 10
346.7469480752
 20
-58.1446946499
 10
346.2912049826
 20
-59.4187553686
 10
345.7608935783
 20
-60.6861478157
 10
345.1600494231
 20
-61.9372277991
 10
344.4932461084
 20
-63.1624728515
 10
343.7655577198
 20
-64.3525582728
 10
342.9825226166
 20
-65.4984274696
 10
342.1501006265
 20
-66.5913584918
 10
341.27462596
 20
-67.6230345611
 10
340.3627624288
 20
-68.5856033826
 10
339.4214494458
 20
-69.4717394981
 10
338.4578509874
 20
-70.2746988443
 10
337.4793007699
 20
-70.9883701741
 10
336.4932461083
 20
-71.6073234356
 10
335.5071914468
 20
-72.1268446532
 10
334.5286412293
 20
-72.5429833559
 10
333.5650427709
 20
-72.8525711085
 10
332.6237297879
 20
-73.0532518296
 10
331.7118662567
 20
-73.1434982314
 10
330.8363915902
 20
-73.1226236966
 10
330.0039696001
 20
-72.9907866467
 10
329.2209344969
 20
-72.7489905363
 10
328.4938960917
 20
-72.3994515944
  0
LWPOLYLINE
  5
E7
330
1F
100
AcDbEntity
  8
0
  6
Continuous
 62
     1
370
    25
100
AcDbPolyline
 90
       53
 70
   128
 43
0.0
 10
290.4765687976
 20
4.3942744775
 10
291.1884317031
 20
3.9443771509
 10
292.0809834166
 20
3.256615933
 10
292.907707021
 20
2.4696858845
 10
293.6654691616
 20
1.5865721162
 10
294.3513933161
 20
0.6106232162
 10
294.9628795506
 20
-0.4544571174
 10
295.4976071544
 20
-1.6046283273
 10
295.9535478103
 20
-2.8355282082
 10
296.3289734976
 20
-4.1424869755
 10
296.6224564918
 20
-5.5205485587
 10
296.8328878038
 20
-6.9644829601
 10
296.9594653266
 20
-8.4688150569
 10
297.0017122739
 20
-10.0278366749
 10
296.9594653266
 20
-11.6356355799
 10
296.8328878038
 20
-13.2861109738
 10
296.6224564918
 20
-14.9730041966
 10
296.3289734976
 20
-16.6899140322
 10
295.9535478103
 20
-18.4303300717
 10
295.4976071544
 20
-20.1876478288
 10
294.9628795506
 20
-21.9552023887
 10
294.3513933161
 20
-23.7262897008
 10
293.6654691616
 20
-25.4941897724
 10
292.907707021
 20
-27.2521970857
 10
292.0809834166
 20
-28.9936418904
 10
291.1884317031
 20
-30.7119213815
 10
290.2334407507
 20
-32.4005149074
 10
289.219631237
 20
-34.0530174292
 10
288.150850379
 20
-35.6631592911
 10
287.0311508597
 20
-37.224835117
 10
285.8647802911
 20
-38.732120539
 10
284.6561634338
 20
-40.1792976716
 10
283.4098857331
 20
-41.5608752623
 10
282.1306735631
 20
-42.871613785
 10
280.8233803967
 20
-44.1065410284
 10
279.4929647448
 20
-45.2609724358
 10
278.1444730339
 20
-46.3305285949
 10
276.7830211672
 20
-47.3111519655
 10
275.4137732448
 20
-48.1991237271
 10
274.0419233718
 20
-48.9910758016
 10
272.6726754494
 20
-49.6840040408
 10
271.3112235826
 20
-50.2752795367
 10
269.9627318718
 20
-50.7626587667
 10
268.6323162199
 20
-51.1442925748
 10
267.3250230535
 20
-51.4187338936
 10
266.0458108835
 20
-51.5849423047
 10
264.7995331828
 20
-51.6422863189
 10
263.5909163255
 20
-51.590548507
 10
262.4245457569
 20
-51.429925879
 10
261.3048462376
 20
-51.1610276006
 10
260.2360653796
 20
-50.7848738511
 10
259.2222558659
 20
-50.3028908786
 10
258.979127819
 20
-50.1668037633
  0
LWPOLYLINE
  5
E8
330
1F
100
AcDbEntity
  8
0
  6
Continuous
 62
     1
370
    25
100
AcDbPolyline
 90
       44
 70
   128
 43
0.0
 10
294.4058207026
 20
0.7694722272
 10
295.0257007454
 20
-0.1957380629
 10
295.6079238962
 20
-1.3047027245
 10
296.1112218048
 20
-2.4982341003
 10
296.5336478136
 20
-3.771712956
 10
296.8735660981
 20
-5.1202132398
 10
297.1296622035
 20
-6.5385184331
 10
297.3009443616
 20
-8.021141703
 10
297.3867513939
 20
-9.5623458654
 10
297.3867513939
 20
-11.1561684799
 10
297.3009443616
 20
-12.796443333
 10
297.1296622035
 20
-14.4768247734
 10
296.8735660981
 20
-16.1908122362
 10
296.5336478136
 20
-17.9317738174
 10
296.1112218048
 20
-19.6929753615
 10
295.6079238962
 20
-21.4676021336
 10
295.0257007454
 20
-23.2487873364
 10
294.3668045747
 20
-25.0296421481
 10
293.6337839512
 20
-26.8032739721
 10
292.8294745676
 20
-28.5628244597
 10
291.9569900224
 20
-30.3014847182
 10
291.0197046976
 20
-32.0125264887
 10
290.0212445393
 20
-33.6893333238
 10
288.9654712525
 20
-35.3254157955
 10
287.8564717643
 20
-36.9144434337
 10
286.6985358338
 20
-38.4502713404
 10
285.4961428806
 20
-39.9269553974
 10
284.2539448632
 20
-41.3387834441
 10
282.9767471808
 20
-42.6802939065
 10
281.6694922099
 20
-43.9462959485
 10
280.3372359261
 20
-45.1318920932
 10
278.9851337451
 20
-46.2324940012
 10
277.6184161564
 20
-47.2438456622
 10
276.2423710257
 20
-48.1620351336
 10
274.8623217797
 20
-48.9835056119
 10
273.4836076504
 20
-49.7050835687
 10
272.1115626014
 20
-50.3239772273
 10
270.7514949952
 20
-50.8377898216
 10
269.4086664378
 20
-51.2445333299
 10
268.0882715284
 20
-51.5426371233
 10
266.7954195846
 20
-51.7309448271
 10
265.5351122517
 20
-51.8087302883
 10
264.3122253934
 20
-51.7756897792
 10
264.1143077441
 20
-51.7595836155
  0
LWPOLYLINE
  5
E9
330
1F
100
AcDbEntity
  8
0
  6
Continuous
 62
     1
370
    25
100
AcDbPolyline
 90
       32
 70
   128
 43
0.0
 10
314.9950007177
 20
-28.1352821591
 10
315.2921741953
 20
-28.5910535533
 10
315.7013127516
 20
-29.3840691867
 10
316.0323189532
 20
-30.258994171
 10
316.2827416977
 20
-31.2093514139
 10
316.450727182
 20
-32.2281047486
 10
316.5350327329
 20
-33.3077111222
 10
316.5350327329
 20
-34.4401782011
 10
316.450727182
 20
-35.6171216919
 10
316.2827416977
 20
-36.8298269385
 10
316.0323189532
 20
-38.0693161277
 10
315.7013127516
 20
-39.3264127378
 10
315.2921741953
 20
-40.5918096932
 10
314.8079325891
 20
-41.8561372349
 10
314.2521723909
 20
-43.1100366823
 10
313.6290088451
 20
-44.3442231697
 10
312.9430557147
 20
-45.5495594079
 10
312.1993910363
 20
-46.7171222216
 10
311.4035215592
 20
-47.8382664248
 10
310.5613382932
 20
-48.9046923081
 10
309.6790773255
 20
-49.908504
 10
308.7632704298
 20
-50.842269159
 10
307.8206981451
 20
-51.6990749581
 10
306.8583385735
 20
-52.4725789362
 10
305.8833170021
 20
-53.1570525293
 10
304.9028519017
 20
-53.7474297358
 10
303.9242024086
 20
-54.2393374346
 10
302.9546141586
 20
-54.6291373003
 10
302.0012652869
 20
-54.9139394872
 10
301.071214732
 20
-55.0916377952
 10
300.1713475769
 20
-55.1609153683
 10
299.4102327862
 20
-55.1318167017
  0
LWPOLYLINE
  5
EA
330
1F
100
AcDbEntity
  8
0
  6
Continuous
 62
     1
370
    25
100
AcDbPolyline
 90
       35
 70
   128
 43
0.0
 10
314.611719253
 20
-27.5971982825
 10
314.8952983963
 20
-27.8806650006
 10
315.4256098006
 20
-28.5357729331
 10
315.8813528932
 20
-29.2836438774
 10
316.2590591201
 20
-30.1185850631
 10
316.5558539346
 20
-31.0342425529
 10
316.769478529
 20
-32.0236476333
 10
316.8983069569
 20
-33.0792702383
 10
316.9413599626
 20
-34.1930757953
 10
316.8983069569
 20
-35.3565892947
 10
316.769478529
 20
-36.5609540365
 10
316.5558539346
 20
-37.7970048236
 10
316.2590591201
 20
-39.0553343123
 10
315.8813528932
 20
-40.3263658251
 10
315.4256098006
 20
-41.6004265438
 10
314.8952983963
 20
-42.8678189909
 10
314.294454241
 20
-44.1188989743
 10
313.6276509263
 20
-45.3441440267
 10
312.8999625377
 20
-46.534229448
 10
312.1169274345
 20
-47.6800986448
 10
311.2845054445
 20
-48.773029667
 10
310.4090307779
 20
-49.8047057363
 10
309.4971672468
 20
-50.7672745578
 10
308.5558542638
 20
-51.6534106733
 10
307.5922558054
 20
-52.4563700195
 10
306.6137055878
 20
-53.1700413493
 10
305.6276509263
 20
-53.7889946108
 10
304.6415962648
 20
-54.3085158284
 10
303.6630460472
 20
-54.7246545311
 10
302.6994475888
 20
-55.0342422837
 10
301.7581346058
 20
-55.2349230048
 10
300.8462710746
 20
-55.3251694066
 10
299.9707964081
 20
-55.3042948718
 10
299.138374418
 20
-55.1724578218
 10
298.7525918013
 20
-55.0689891637
  0
ENDSEC
  0
SECTION
  2
OBJECTS
  0
DICTIONARY
  5
C
330
0
100
AcDbDictionary
281
     1
  3
ACAD_GROUP
350
D
  3
ACAD_LAYOUT
350
1A
  3
ACAD_MLINESTYLE
350
17
  3
ACAD_PLOTSETTINGS
350
19
  3
ACAD_PLOTSTYLENAME
350
E
  3
ACAD_SCALELIST
350
47
  0
DICTIONARY
  5
D
102
{ACAD_REACTORS
330
C
102
}
330
C
100
AcDbDictionary
281
     1
  0
DICTIONARY
  5
1A
102
{ACAD_REACTORS
330
C
102
}
330
C
100
AcDbDictionary
281
     1
  3
Layout1
350
1E
  3
Layout2
350
26
  3
Model
350
22
  0
DICTIONARY
  5
17
102
{ACAD_REACTORS
330
C
102
}
330
C
100
AcDbDictionary
281
     1
  3
Standard
350
18
  0
DICTIONARY
  5
19
102
{ACAD_REACTORS
330
C
102
}
330
C
100
AcDbDictionary
281
     1
  0
ACDBDICTIONARYWDFLT
  5
E
102
{ACAD_REACTORS
330
C
102
}
330
C
100
AcDbDictionary
281
     1
  3
Normal
350
F
100
AcDbDictionaryWithDefault
340
F
  0
DICTIONARY
  5
47
102
{ACAD_REACTORS
330
C
102
}
330
C
100
AcDbDictionary
281
     1
  3
A0
350
48
  3
A1
350
49
  3
A2
350
4A
  3
A3
350
4B
  3
A4
350
4C
  3
A5
350
4D
  3
A6
350
4E
  3
A7
350
4F
  3
A8
350
50
  3
A9
350
51
  3
B0
350
52
  3
B1
350
53
  3
B2
350
54
  3
B3
350
55
  3
B4
350
56
  3
B5
350
57
  3
B6
350
58
  3
B7
350
59
  3
B8
350
5A
  3
B9
350
5B
  3
C0
350
5C
  3
C1
350
5D
  3
C2
350
5E
  3
C3
350
5F
  3
C4
350
60
  3
C5
350
61
  3
C6
350
62
  3
C7
350
63
  3
C8
350
64
  3
C9
350
65
  3
D0
350
66
  3
D1
350
67
  3
D2
350
68
  0
LAYOUT
  5
1E
102
{ACAD_REACTORS
330
1A
102
}
330
1A
100
AcDbPlotSettings
  1

  2
none_device
  4

  6

 40
0.0
 41
0.0
 42
0.0
 43
0.0
 44
0.0
 45
0.0
 46
0.0
 47
0.0
 48
0.0
 49
0.0
140
0.0
141
0.0
142
1.0
143
1.0
 70
   688
 72
     1
 73
     0
 74
     5
  7

 75
    16
147
1.0
148
0.0
149
0.0
100
AcDbLayout
  1
Layout1
 70
     1
 71
     1
 10
0.0
 20
0.0
 11
420.0
 21
297.0
 12
0.0
 22
0.0
 32
0.0
 14
1.0000000000E+20
 24
1.0000000000E+20
 34
1.0000000000E+20
 15
-1.0000000000E+20
 25
-1.0000000000E+20
 35
-1.0000000000E+20
146
0.0
 13
0.0
 23
0.0
 33
0.0
 16
1.0
 26
0.0
 36
0.0
 17
0.0
 27
1.0
 37
0.0
 76
     0
330
1B
  0
LAYOUT
  5
26
102
{ACAD_REACTORS
330
1A
102
}
330
1A
100
AcDbPlotSettings
  1

  2
none_device
  4

  6

 40
0.0
 41
0.0
 42
0.0
 43
0.0
 44
0.0
 45
0.0
 46
0.0
 47
0.0
 48
0.0
 49
0.0
140
0.0
141
0.0
142
1.0
143
1.0
 70
   688
 72
     1
 73
     0
 74
     5
  7

 75
    16
147
1.0
148
0.0
149
0.0
100
AcDbLayout
  1
Layout2
 70
     1
 71
     2
 10
0.0
 20
0.0
 11
0.0
 21
0.0
 12
0.0
 22
0.0
 32
0.0
 14
0.0
 24
0.0
 34
0.0
 15
0.0
 25
0.0
 35
0.0
146
0.0
 13
0.0
 23
0.0
 33
0.0
 16
1.0
 26
0.0
 36
0.0
 17
0.0
 27
1.0
 37
0.0
 76
     0
330
23
  0
LAYOUT
  5
22
102
{ACAD_REACTORS
330
1A
102
}
330
1A
100
AcDbPlotSettings
  1

  2
none_device
  4
Letter_(8.50_x_11.00_Inches)
  6

 40
6.35
 41
6.35
 42
6.35000508
 43
6.35000508
 44
215.9
 45
279.4
 46
0.0
 47
0.0
 48
0.0
 49
0.0
140
0.0
141
0.0
142
1.0
143
1.0
 70
  1712
 72
     1
 73
     0
 74
     0
  7

 75
     0
147
1.0
148
0.0
149
0.0
100
AcDbLayout
  1
Model
 70
     1
 71
     0
 10
0.0
 20
0.0
 11
279.4
 21
215.9
 12
0.0
 22
0.0
 32
0.0
 14
0.0
 24
0.0
 34
0.0
 15
279.4
 25
215.9
 35
0.0
146
0.0
 13
0.0
 23
0.0
 33
0.0
 16
1.0
 26
0.0
 36
0.0
 17
0.0
 27
1.0
 37
0.0
 76
     0
330
1F
331
29
  0
MLINESTYLE
  5
18
102
{ACAD_REACTORS
330
17
102
}
330
17
100
AcDbMlineStyle
  2
Standard
 70
     0
  3

 62
   256
 51
90.0
 52
90.0
 71
     2
 49
0.5
 62
   256
  6
BYLAYER
 49
-0.5
 62
   256
  6
BYLAYER
  0
ACDBPLACEHOLDER
  5
F
102
{ACAD_REACTORS
330
E
102
}
330
E
  0
SCALE
  5
48
102
{ACAD_REACTORS
330
47
102
}
330
47
100
AcDbScale
 70
     0
300
1:1
140
1.0
141
1.0
290
     1
  0
SCALE
  5
49
102
{ACAD_REACTORS
330
47
102
}
330
47
100
AcDbScale
 70
     0
300
1:2
140
1.0
141
2.0
290
     0
  0
SCALE
  5
4A
102
{ACAD_REACTORS
330
47
102
}
330
47
100
AcDbScale
 70
     0
300
1:4
140
1.0
141
4.0
290
     0
  0
SCALE
  5
4B
102
{ACAD_REACTORS
330
47
102
}
330
47
100
AcDbScale
 70
     0
300
1:5
140
1.0
141
5.0
290
     0
  0
SCALE
  5
4C
102
{ACAD_REACTORS
330
47
102
}
330
47
100
AcDbScale
 70
     0
300
1:8
140
1.0
141
8.0
290
     0
  0
SCALE
  5
4D
102
{ACAD_REACTORS
330
47
102
}
330
47
100
AcDbScale
 70
     0
300
1:10
140
1.0
141
10.0
290
     0
  0
SCALE
  5
4E
102
{ACAD_REACTORS
330
47
102
}
330
47
100
AcDbScale
 70
     0
300
1:16
140
1.0
141
16.0
290
     0
  0
SCALE
  5
4F
102
{ACAD_REACTORS
330
47
102
}
330
47
100
AcDbScale
 70
     0
300
1:20
140
1.0
141
20.0
290
     0
  0
SCALE
  5
50
102
{ACAD_REACTORS
330
47
102
}
330
47
100
AcDbScale
 70
     0
300
1:30
140
1.0
141
30.0
290
     0
  0
SCALE
  5
51
102
{ACAD_REACTORS
330
47
102
}
330
47
100
AcDbScale
 70
     0
300
1:40
140
1.0
141
40.0
290
     0
  0
SCALE
  5
52
102
{ACAD_REACTORS
330
47
102
}
330
47
100
AcDbScale
 70
     0
300
1:50
140
1.0
141
50.0
290
     0
  0
SCALE
  5
53
102
{ACAD_REACTORS
330
47
102
}
330
47
100
AcDbScale
 70
     0
300
1:100
140
1.0
141
100.0
290
     0
  0
SCALE
  5
54
102
{ACAD_REACTORS
330
47
102
}
330
47
100
AcDbScale
 70
     0
300
2:1
140
2.0
141
1.0
290
     0
  0
SCALE
  5
55
102
{ACAD_REACTORS
330
47
102
}
330
47
100
AcDbScale
 70
     0
300
4:1
140
4.0
141
1.0
290
     0
  0
SCALE
  5
56
102
{ACAD_REACTORS
330
47
102
}
330
47
100
AcDbScale
 70
     0
300
8:1
140
8.0
141
1.0
290
     0
  0
SCALE
  5
57
102
{ACAD_REACTORS
330
47
102
}
330
47
100
AcDbScale
 70
     0
300
10:1
140
10.0
141
1.0
290
     0
  0
SCALE
  5
58
102
{ACAD_REACTORS
330
47
102
}
330
47
100
AcDbScale
 70
     0
300
100:1
140
100.0
141
1.0
290
     0
  0
SCALE
  5
59
102
{ACAD_REACTORS
330
47
102
}
330
47
100
AcDbScale
 70
     0
300
1/128" = 1'-0"
140
0.0078125
141
12.0
290
     0
  0
SCALE
  5
5A
102
{ACAD_REACTORS
330
47
102
}
330
47
100
AcDbScale
 70
     0
300
1/64" = 1'-0"
140
0.015625
141
12.0
290
     0
  0
SCALE
  5
5B
102
{ACAD_REACTORS
330
47
102
}
330
47
100
AcDbScale
 70
     0
300
1/32" = 1'-0"
140
0.03125
141
12.0
290
     0
  0
SCALE
  5
5C
102
{ACAD_REACTORS
330
47
102
}
330
47
100
AcDbScale
 70
     0
300
1/16" = 1'-0"
140
0.0625
141
12.0
290
     0
  0
SCALE
  5
5D
102
{ACAD_REACTORS
330
47
102
}
330
47
100
AcDbScale
 70
     0
300
3/32" = 1'-0"
140
0.09375
141
12.0
290
     0
  0
SCALE
  5
5E
102
{ACAD_REACTORS
330
47
102
}
330
47
100
AcDbScale
 70
     0
300
1/8" = 1'-0"
140
0.125
141
12.0
290
     0
  0
SCALE
  5
5F
102
{ACAD_REACTORS
330
47
102
}
330
47
100
AcDbScale
 70
     0
300
3/16" = 1'-0"
140
0.1875
141
12.0
290
     0
  0
SCALE
  5
60
102
{ACAD_REACTORS
330
47
102
}
330
47
100
AcDbScale
 70
     0
300
1/4" = 1'-0"
140
0.25
141
12.0
290
     0
  0
SCALE
  5
61
102
{ACAD_REACTORS
330
47
102
}
330
47
100
AcDbScale
 70
     0
300
3/8" = 1'-0"
140
0.375
141
12.0
290
     0
  0
SCALE
  5
62
102
{ACAD_REACTORS
330
47
102
}
330
47
100
AcDbScale
 70
     0
300
1/2" = 1'-0"
140
0.5
141
12.0
290
     0
  0
SCALE
  5
63
102
{ACAD_REACTORS
330
47
102
}
330
47
100
AcDbScale
 70
     0
300
3/4" = 1'-0"
140
0.75
141
12.0
290
     0
  0
SCALE
  5
64
102
{ACAD_REACTORS
330
47
102
}
330
47
100
AcDbScale
 70
     0
300
1" = 1'-0"
140
1.0
141
12.0
290
     0
  0
SCALE
  5
65
102
{ACAD_REACTORS
330
47
102
}
330
47
100
AcDbScale
 70
     0
300
1-1/2" = 1'-0"
140
1.5
141
12.0
290
     0
  0
SCALE
  5
66
102
{ACAD_REACTORS
330
47
102
}
330
47
100
AcDbScale
 70
     0
300
3" = 1'-0"
140
3.0
141
12.0
290
     0
  0
SCALE
  5
67
102
{ACAD_REACTORS
330
47
102
}
330
47
100
AcDbScale
 70
     0
300
6" = 1'-0"
140
6.0
141
12.0
290
     0
  0
SCALE
  5
68
102
{ACAD_REACTORS
330
47
102
}
330
47
100
AcDbScale
 70
     0
300
1'-0" = 1'-0"
140
12.0
141
12.0
290
     0
  0
ENDSEC
  0
EOF
